Книги

Песня о Друге Минус Am аккорды Высоцкий Владимир


На этой странице вы сможете слушать аудио книгу Песня о Друге Минус Am аккорды - Высоцкий Владимир в mp3, прочитать текст, смотреть видео и слушать аудио книгу онлайн.

Рейтинг: 0

Автор: Высоцкий Владимир

Название книги: Песня о Друге Минус Am аккорды

Продолжительность: 02:53

Дата добавления: 2016-10-18

Текст просмотрен: 274

Скачать

Другие песни исполнителя Высоцкий Владимир

Текст предисловия:

Am.........
Если друг
......E7...........
оказался вдруг
E7...................Am
И не друг, и не враг,
а так;

A7...............Dm.........
Если сразу не разберешь,
G7................C......
Плох он или хорош, -
Am..................Dm
Парня в горы тяни -
............
рискни! -
...................Am
Не бросай одного
.....
его:
Am..........................Dm
Пусть он в связке в одной
............
с тобой -
E7......................Am
Там поймешь, кто такой.

Если парень в горах -
не ах,
Если сразу раскис
и вниз,
Шаг ступил на ледник -
и сник,
Оступился - и в крик, -
Значит, рядом с тобой -
чужой,
Ты его не брани -
гони.
Вверх таких не берут
и тут
Про таких не поют.

Если ж он не скулил,
не ныл,
Пусть он хмур был и зол,
но шел.
А когда ты упал
со скал,
Он стонал,
но держал;
Если шел он с тобой
как в бой,
На вершине стоял - хмельной, -
Значит, как на себя самого
Положись на него!

-5-7-8-7-5---------1-------1------------
-----------------3-------3---3----------
---------------2---------------2--------
-------------0-------------------0------
----------------------------------------
----------------------------------------

-5-7-8-7-5---------0---0-------------
-----------------1---1----1----------
---------------2--------------2------
-------------------------------------
-------------0-----------------------
-------------------------------------

Видео:

Лирическая (В. Высоцкий) Аккорды на гитаре





Комментарии:

Добавить комментарий



Каптча: