Книги

Мечта..) Саша Беляев -


На этой странице вы сможете слушать аудио книгу Мечта..) - Саша Беляев - в mp3, прочитать текст, смотреть видео и слушать аудио книгу онлайн.

Рейтинг: 0

Автор: Саша Беляев -

Название книги: Мечта..)

Продолжительность: 02:02

Дата добавления: 2016-10-13

Текст просмотрен: 134

Скачать

Другие песни исполнителя Саша Беляев -

Текст предисловия:

|------------------------------------|------------------------------------|
|-----1---0---1---3---1---0---1---|-----1---0---1---3---1--- 0---1----|
|---2---2---2---2---2---2---2---2-|---2---2---2---2---2---2---2---2-|
|------------------------------------|------------------- -----------------|
|-0----------------------------------|-3---------------------------------|
|------------------------------------|------ ------------------------------|
G Am
|---------3---1---0-----------------|------------------------------------|
|-----0---------------3---1---0-----|-----1---0---1---3---1- --1---1---|
|---0---0---0---0---0---0---0---0-|---2---2---2---2---2---2---2---2-|
|------------------------------------|------------------ ------------------|
|-2----------------------------------|-0---------------------------------|
|------------------------------------|----- -------------------------------|

Аккорды:

Am C G Am Вообщем там сложно обьяснять...

Видео:

Семинар: Желания.Цели. Мечты. Планы. Результаты.





Комментарии:

Добавить комментарий



Каптча: