Книги

Лет ит би РАЗГРОМ


На этой странице вы сможете слушать аудио книгу Лет ит би - РАЗГРОМ в mp3, прочитать текст, смотреть видео и слушать аудио книгу онлайн.

Рейтинг: 0

Автор: РАЗГРОМ

Название книги: Лет ит би

Продолжительность: 03:19

Дата добавления: 2016-03-06

Текст просмотрен: 235

Скачать

Другие песни исполнителя РАЗГРОМ

Текст предисловия:

Вступление (4x): A5 D5 A5 E5 A5 D5 E5(II) G5(V) A5(VII)

.A................E.................A
Падали угли на скрипучий снег,
A.......................E..............A
Из дому на улицу вышел человек,
D..........G.......E...........A
Озаряя даль дом его горел,
....D..............A..............E.............A
А человек махнул рукой и песенку запел:
.........A..........G..........F...........C
Let It Be, Let It Be, Let It Be, Let It Be,
........C...........G..............F...........C
Мне ничего не надо, Let It Be, Let It Beeee!

Он и не поймёт, в чём его вина,
Продали друзья, бросила жена,
Некого любить, нечего терять,
Остаётся лишь одно - песню напевать:

Let It Be, Let It Be, Let It Be, Let It Be,
Мне ничего не надо, Let It Be, Let It Beeee!

Pre-solo (2x):

E||---------------------------------------------------------------
B||---------------------------------------------------------------
G||---------------------------------------------------------------
D||------------------5--7-5--------------4--5--7-----4--5--7--
A||----4-5--4-5-7-----------7-5-4--5-------------5-----------
E||--5------------------------------------------------------------

Solo:

E||--------------------------------------------------------------------------------------
B||--5--5--5--5------------------------------------------------------------------------
G||--7b7b-7b7b-7-5---5-----------5--------5--------5h7p5-5h7-7-5-5h7-7-7-5-
D||---------------------7--7-----5h7--7p5h7--7p5h7---------5h7-7-5-5h7-7-7-5-
A||-------------------------------------------------------------------------------------
E||--------------------------------------------------------------------------------------

-------------10-10-10-8-7-8-10-12-12-12-10-8--10-8-10-8-7-8-8-7-5-7-7br-7br
5------------------------------------------------------------------------------------------
7b-5------5-----------------------------------------------------------------------------
-----7-5-7-------------------------------------------------------------------------------
--------------------------------------------------------------------------------------------
--------------------------------------------------------------------------------------------

--5h7p5h7p5h7/----
-----------------------
-----------------------
-----------------------
-----------------------
-----------------------

Под его рукой - белые поля,
А над головой - звёзды и луна,
Кружится, скрипит вечный небосвод,
Сыпет снег, а человек песенку поёт:

Let It Be, Let It Be, Let It Be, Let It Be,
Мне ничего не надо, Let It Be, Let It Bee

Видео:

Igor Ballereau - I (the defeat of the personal) - XV. Let it be a poem





Комментарии:

Добавить комментарий



Каптча: