Книги

Бомбардировщики Дж.Макхью - Т.Сикорская и С.Болотин Александр Евстигнеев


На этой странице вы сможете слушать аудио книгу Бомбардировщики Дж.Макхью - Т.Сикорская и С.Болотин - Александр Евстигнеев в mp3, прочитать текст, смотреть видео и слушать аудио книгу онлайн.

Рейтинг: 0

Автор: Александр Евстигнеев

Название книги: Бомбардировщики (Дж.Макхью - Т.Сикорская и С.Болотин)

Продолжительность: 02:40

Дата добавления: 2016-09-08

Текст просмотрен: 376

Скачать

Другие песни исполнителя Александр Евстигнеев

Текст предисловия:

G Eb
Был озабочен очень воздушный наш народ:
G F(5 поз.)
К нам не вернулся ночью с бомбежки самолет.
D A7 D G
Радисты скребли в эфире, волну найдя едва,
D A7 D7
И вот без пяти четыре услышали слова:

G D G Gsus4 G
"Мы летим, ковыляя во мгле,
Gsus4 G A D
Мы ползем на последнем крыле.
G G7 C
Бак пробит, хвост горит и машина летит
G D G
На честном слове и на одном крыле..."

G Gsus4 G Gsus4 G A D(5 поз.) D7 (5 поз.)
Ну, дела! Ночь была! Их объекты разбомбили мы дотла.
G D G Gsus4 G A D
Мы ушли, ковыляя во мгле, мы к родной подлетаем земле.
G G7 C
Вся команда цела и машина пришла
G D G
На честном слове и на одном крыле.

Solo на скрипке: G A D G (G7 только во 2-ой раз) C G D G - 2 раза

G D G
Соming in on a wing and the praуеr
G A D
Соming in on a wing and the praуеr
G G7
Though there?s one motor gone
C
We Саn still Саrrу on
G D G
Соming in on a wing and the praуеr

Outro: на скрипке

Licks:
G D Dsus4 D A D7
-----------------2h3-----------------------------------------------------------
-----------------3---3---3-------------------1---3p1---------------2-----1-3-1-
-3p0-------3p0---2---2---2---2h3p2p0-----0-----2-----2----0------2--2---2------
-----3b?-------3-0-----0-------------3b?-----0---------0----2---2-2--2-0-------
---------------------------------------------------------------0---------------
-----------------------------------------3-------------------------------------
(1) (2) (3) (4) (5)

-----------------------------------------------------
----------------------------0------------------------
-2-0--3p0------------------0--------0--2h3p2p0-2-0---
-0-0------1/3-0-----------0-----0-2--------------0---
-------------------------2---------------------------
----------------3h6-3-1-3----------------------------
(6) (7) начало соло на баяне

Комментарий автора подбора к песне:

Пояснения к таблатуре:
/ - слайды (вперёд, назад)
h - hammer-on
p - pull-off
b?- неполный bend

Цифры в скобках (1) и т.д означают lick, который нужно сыграть в этом месте.
Их вы можете найти в конце таблатуры.

Трудные аккорды: Csus4 032030; Eb 365343; F(5 поз.) 587565; G* - 2-ой вид ак-
корда: 320033; Gsus4 320013; D(5 поз.) 557775; D7(5 поз.) 557578.

Возможно, вам понравятся также:

Видео:

Леонид Утёсов, Эдит Утёсова Бомбардировщики





Комментарии:

Добавить комментарий



Каптча: